  0
SECTION
  2
HEADER
  9
$ACADVER
  1
AC1009
  9
$INSBASE
 10
0.0
 20
0.0
 30
0.0
  9
$EXTMIN
 10
-80.010985489947416
 20
-131.71201227911089
 30
-0.0015258207003583
  9
$EXTMAX
 10
280.01098716632811
 20
403.5481165140169
 30
0.0000000349246037
  9
$LIMMIN
 10
0.0
 20
0.0
  9
$LIMMAX
 10
0.0
 20
0.0
  9
$ORTHOMODE
 70
     0
  9
$REGENMODE
 70
     1
  9
$FILLMODE
 70
     1
  9
$QTEXTMODE
 70
     0
  9
$MIRRTEXT
 70
     1
  9
$DRAGMODE
 70
     2
  9
$LTSCALE
 40
10.16
  9
$OSMODE
 70
   231
  9
$ATTMODE
 70
     1
  9
$TEXTSIZE
 40
0.0
  9
$TRACEWID
 40
1.0
  9
$TEXTSTYLE
  7
STANDARD
  9
$CLAYER
  8
DATA
  9
$CELTYPE
  6
BYLAYER
  9
$CECOLOR
 62
   256
  9
$DIMSCALE
 40
1.0
  9
$DIMASZ
 40
0.18
  9
$DIMEXO
 40
0.0625
  9
$DIMDLI
 40
0.38
  9
$DIMRND
 40
0.0
  9
$DIMDLE
 40
0.0
  9
$DIMEXE
 40
0.18
  9
$DIMTP
 40
0.0
  9
$DIMTM
 40
0.0
  9
$DIMTXT
 40
0.18
  9
$DIMCEN
 40
0.09
  9
$DIMTSZ
 40
0.0
  9
$DIMTOL
 70
     0
  9
$DIMLIM
 70
     0
  9
$DIMTIH
 70
     1
  9
$DIMTOH
 70
     1
  9
$DIMSE1
 70
     0
  9
$DIMSE2
 70
     0
  9
$DIMTAD
 70
     0
  9
$DIMZIN
 70
     0
  9
$DIMBLK
  1

  9
$DIMASO
 70
     1
  9
$DIMSHO
 70
     1
  9
$DIMPOST
  1

  9
$DIMAPOST
  1

  9
$DIMALT
 70
     0
  9
$DIMALTD
 70
     2
  9
$DIMALTF
 40
25.399999999999999
  9
$DIMLFAC
 40
1.0
  9
$DIMTOFL
 70
     0
  9
$DIMTVP
 40
0.0
  9
$DIMTIX
 70
     0
  9
$DIMSOXD
 70
     0
  9
$DIMSAH
 70
     0
  9
$DIMBLK1
  1

  9
$DIMBLK2
  1

  9
$DIMSTYLE
  2
STANDARD
  9
$DIMCLRD
 70
     0
  9
$DIMCLRE
 70
     0
  9
$DIMCLRT
 70
     0
  9
$DIMTFAC
 40
1.0
  9
$DIMGAP
 40
0.09
  9
$LUNITS
 70
     2
  9
$LUPREC
 70
     4
  9
$SKETCHINC
 40
0.1
  9
$FILLETRAD
 40
0.0
  9
$AUNITS
 70
     0
  9
$AUPREC
 70
     0
  9
$MENU
  1
acad
  9
$ELEVATION
 40
0.0
  9
$PELEVATION
 40
0.0
  9
$THICKNESS
 40
0.0
  9
$LIMCHECK
 70
     0
  9
$BLIPMODE
 70
     0
  9
$CHAMFERA
 40
0.0
  9
$CHAMFERB
 40
0.0
  9
$SKPOLY
 70
     0
  9
$TDCREATE
 40
2455027.5828819438
  9
$TDUPDATE
 40
2455027.5934263659
  9
$TDINDWG
 40
0.0002323843
  9
$TDUSRTIMER
 40
0.0002323843
  9
$USRTIMER
 70
     1
  9
$ANGBASE
 50
0.0
  9
$ANGDIR
 70
     0
  9
$PDMODE
 70
     1
  9
$PDSIZE
 40
-2.0
  9
$PLINEWID
 40
0.0
  9
$COORDS
 70
     0
  9
$SPLFRAME
 70
     0
  9
$SPLINETYPE
 70
     6
  9
$SPLINESEGS
 70
     8
  9
$ATTDIA
 70
     0
  9
$ATTREQ
 70
     1
  9
$HANDLING
 70
     1
  9
$HANDSEED
  5
247
  9
$SURFTAB1
 70
     6
  9
$SURFTAB2
 70
     6
  9
$SURFTYPE
 70
     6
  9
$SURFU
 70
     6
  9
$SURFV
 70
     6
  9
$UCSNAME
  2

  9
$UCSORG
 10
0.0
 20
0.0
 30
0.0
  9
$UCSXDIR
 10
1.0
 20
0.0
 30
0.0
  9
$UCSYDIR
 10
0.0
 20
1.0
 30
0.0
  9
$PUCSNAME
  2

  9
$PUCSORG
 10
0.0
 20
0.0
 30
0.0
  9
$PUCSXDIR
 10
1.0
 20
0.0
 30
0.0
  9
$PUCSYDIR
 10
0.0
 20
1.0
 30
0.0
  9
$USERI1
 70
     0
  9
$USERI2
 70
     0
  9
$USERI3
 70
     0
  9
$USERI4
 70
     0
  9
$USERI5
 70
     0
  9
$USERR1
 40
0.0
  9
$USERR2
 40
0.0
  9
$USERR3
 40
0.0
  9
$USERR4
 40
0.0
  9
$USERR5
 40
0.0
  9
$WORLDVIEW
 70
     1
  9
$SHADEDGE
 70
     3
  9
$SHADEDIF
 70
    70
  9
$TILEMODE
 70
     1
  9
$MAXACTVP
 70
    64
  9
$PLIMCHECK
 70
     0
  9
$PEXTMIN
 10
1.0000000000000000E+020
 20
1.0000000000000000E+020
 30
1.0000000000000000E+020
  9
$PEXTMAX
 10
-1.0000000000000000E+020
 20
-1.0000000000000000E+020
 30
-1.0000000000000000E+020
  9
$PLIMMIN
 10
0.0
 20
0.0
  9
$PLIMMAX
 10
12.0
 20
9.0
  9
$UNITMODE
 70
     0
  9
$VISRETAIN
 70
     0
  9
$PLINEGEN
 70
     1
  9
$PSLTSCALE
 70
     0
  0
ENDSEC
  0
SECTION
  2
TABLES
  0
TABLE
  2
VPORT
 70
     1
  0
VPORT
  2
*ACTIVE
 70
     0
 10
0.0
 20
0.0
 11
1.0
 21
1.0
 12
100.0000008381904
 22
135.91805211745299
 13
0.0
 23
0.0
 14
1.0
 24
1.0
 15
0.0
 25
0.0
 16
0.0
 26
0.0
 36
1.0
 17
0.0
 27
0.0
 37
0.0
 40
539.20553514786843
 41
1.964329643296433
 42
50.0
 43
0.0
 44
0.0
 50
0.0
 51
0.0
 71
     0
 72
  2000
 73
     1
 74
     1
 75
     0
 76
     0
 77
     0
 78
     0
  0
ENDTAB
  0
TABLE
  2
LTYPE
 70
    11
  0
LTYPE
  2
CONTINUOUS
 70
     0
  3
Solid line
 72
    65
 73
     0
 40
0.0
  0
ENDTAB
  0
TABLE
  2
LAYER
 70
     5
  0
LAYER
  2
0
 70
     0
 62
     7
  6
CONTINUOUS
  0
LAYER
  2
DATA
 70
     0
 62
     7
  6
CONTINUOUS
  0
LAYER
  2
HIBINO-BASE
 70
     0
 62
     7
  6
CONTINUOUS
  0
LAYER
  2
SPEC
 70
     0
 62
     7
  6
CONTINUOUS
  0
LAYER
  2
DIMNSIONS
 70
     0
 62
     7
  6
CONTINUOUS
  0
ENDTAB
  0
TABLE
  2
STYLE
 70
     3
  0
STYLE
  2
STANDARD
 70
     0
 40
0.0
 41
1.0
 50
0.0
 71
     0
 42
0.0
  3
txt
  4
BIGFONT.SHX
  0
ENDTAB
  0
TABLE
  2
VIEW
 70
     0
  0
ENDTAB
  0
TABLE
  2
UCS
 70
     0
  0
ENDTAB
  0
TABLE
  2
APPID
 70
     3
  0
APPID
  2
ACAD
 70
     0
  0
APPID
  2
ACADANNOTATIVE
 70
     0
  0
APPID
  2
ACAD_MLEADERVER
 70
     0
  0
ENDTAB
  0
TABLE
  2
DIMSTYLE
 70
     2
  0
DIMSTYLE
  2
STANDARD
 70
     0
  3

  4

  5

  6

  7

 40
1.0
 41
0.18
 42
0.0625
 43
0.38
 44
0.18
 45
0.0
 46
0.0
 47
0.0
 48
0.0
140
0.18
141
0.09
142
0.0
143
25.399999999999999
144
1.0
145
0.0
146
1.0
147
0.09
 71
     0
 72
     0
 73
     1
 74
     1
 75
     0
 76
     0
 77
     0
 78
     0
170
     0
171
     2
172
     0
173
     0
174
     0
175
     0
176
     0
177
     0
178
     0
  0
ENDTAB
  0
ENDSEC
  0
SECTION
  2
BLOCKS
  0
BLOCK
  8
0
  2
$MODEL_SPACE
 70
     0
 10
0.0
 20
0.0
 30
0.0
  3
$MODEL_SPACE
  1

  0
ENDBLK
  5
1E8
  8
0
  0
BLOCK
 67
     1
  8
0
  2
$PAPER_SPACE
 70
     0
 10
0.0
 20
0.0
 30
0.0
  3
$PAPER_SPACE
  1

  0
ENDBLK
  5
1E4
 67
     1
  8
0
  0
ENDSEC
  0
SECTION
  2
ENTITIES
  0
LINE
  5
2C
  8
HIBINO-BASE
  6
CONTINUOUS
 62
     7
 10
-79.999999999999986
 20
403.53181499999999
 30
0.0
 11
279.99999999999989
 21
403.53181499999999
 31
0.0
  0
LINE
  5
2D
  8
HIBINO-BASE
  6
CONTINUOUS
 62
     7
 10
279.99999999999989
 20
-116.46818500000001
 30
0.0
 11
-79.999999999999986
 21
-116.46818500000001
 31
0.0
  0
LINE
  5
2E
  8
HIBINO-BASE
  6
CONTINUOUS
 62
     7
 10
-79.999999999999986
 20
-116.46818500000001
 30
0.0
 11
-79.999999999999986
 21
403.53181499999999
 31
0.0
  0
TEXT
  5
2F
  8
HIBINO-BASE
 62
     7
 10
-65.631999999999991
 20
-129.2855405999999
 30
0.0
 40
7.2000883593749991
  1
Hibino Corporation
 41
0.7
 11
-65.631999999999991
 21
-122.0854522406249
 31
0.0
 73
     3
  0
LINE
  5
30
  8
HIBINO-BASE
  6
CONTINUOUS
 62
     7
 10
279.99999999999989
 20
403.53181499999999
 30
0.0
 11
279.99999999999989
 21
-116.46818500000001
 31
0.0
  0
LINE
  5
31
  8
HIBINO-BASE
  6
CONTINUOUS
 62
     7
 10
100.0
 20
-71.468184999999977
 30
0.0
 11
279.99999999999989
 21
-71.468184999999977
 31
0.0
  0
LINE
  5
32
  8
HIBINO-BASE
  6
CONTINUOUS
 62
     7
 10
100.0
 20
-116.46818500000001
 30
0.0
 11
100.0
 21
-71.468184999999977
 31
0.0
  0
TEXT
  5
33
  8
HIBINO-BASE
 62
     7
 10
101.8
 20
-76.485571666666644
 30
0.0
 40
3.2576822916666659
  1
NOTE
 41
0.7
 11
101.8
 21
-73.227889374999975
 31
0.0
 73
     3
  0
LINE
  5
34
  8
HIBINO-BASE
  6
CONTINUOUS
 62
     7
 10
170.0
 20
-116.46818500000001
 30
0.0
 11
170.0
 21
-71.468184999999977
 31
0.0
  0
TEXT
  5
35
  8
HIBINO-BASE
 62
     7
 10
171.7999999999999
 20
-76.485571666666644
 30
0.0
 40
3.2576822916666659
  1
TITLE
 41
0.7
 11
171.7999999999999
 21
-73.227889374999975
 31
0.0
 73
     3
  0
TEXT
  5
36
  8
HIBINO-BASE
 62
     7
 10
200.13677999999999
 20
-129.2855405999999
 30
0.0
 40
7.2000883593749991
  1
ヒビノ株式会社
 41
0.7
 11
200.13677999999999
 21
-122.0854522406249
 31
0.0
 73
     3
  0
LINE
  5
37
  8
HIBINO-BASE
  6
CONTINUOUS
 62
     7
 10
100.0
 20
-96.468184999999963
 30
0.0
 11
279.99999999999989
 21
-96.468184999999963
 31
0.0
  0
TEXT
  5
38
  8
HIBINO-BASE
 62
     7
 10
196.80000000000001
 20
-101.3729316666666
 30
0.0
 40
3.2576822916666659
  1
DRAWN
 41
0.7
 11
196.80000000000001
 21
-98.115249375000005
 31
0.0
 73
     3
  0
TEXT
  5
39
  8
HIBINO-BASE
 62
     7
 10
146.7999999999999
 20
-101.3729316666666
 30
0.0
 40
3.2576822916666659
  1
DATE
 41
0.7
 11
146.7999999999999
 21
-98.115249375000005
 31
0.0
 73
     3
  0
TEXT
  5
3A
  8
HIBINO-BASE
 62
     7
 10
126.8
 20
-101.3729316666666
 30
0.0
 40
3.2576822916666659
  1
SCALE
 41
0.7
 11
126.8
 21
-98.115249375000005
 31
0.0
 73
     3
  0
TEXT
  5
3B
  8
HIBINO-BASE
 62
     7
 10
171.7999999999999
 20
-101.3729316666666
 30
0.0
 40
3.2576822916666659
  1
DESIGN
 41
0.7
 11
171.7999999999999
 21
-98.115249375000005
 31
0.0
 73
     3
  0
TEXT
  5
3C
  8
HIBINO-BASE
 62
     7
 10
246.7999999999999
 20
-101.3729316666666
 30
0.0
 40
3.2576822916666659
  1
DRAWING NO.
 41
0.7
 11
246.7999999999999
 21
-98.115249375000005
 31
0.0
 73
     3
  0
TEXT
  5
3D
  8
HIBINO-BASE
 62
     7
 10
221.7999999999999
 20
-101.3729316666666
 30
0.0
 40
3.2576822916666659
  1
CHECK
 41
0.7
 11
221.7999999999999
 21
-98.115249375000005
 31
0.0
 73
     3
  0
LINE
  5
3E
  8
HIBINO-BASE
  6
CONTINUOUS
 62
     7
 10
128.74999999999989
 20
-113.96818500000001
 30
0.0
 11
136.25
 21
-106.46818499999991
 31
0.0
  0
TEXT
  5
3F
  8
HIBINO-BASE
 62
     7
 10
127.5
 20
-108.68607166666661
 30
0.0
 40
3.2576822916666659
  1
1
 41
0.7
 11
127.5
 21
-105.42838937499999
 31
0.0
 73
     3
  0
LINE
  5
40
  8
HIBINO-BASE
  6
CONTINUOUS
 62
     7
 10
125.0
 20
-116.46818500000001
 30
0.0
 11
125.0
 21
-96.468184999999963
 31
0.0
  0
LINE
  5
41
  8
HIBINO-BASE
  6
CONTINUOUS
 62
     7
 10
145.0
 20
-116.46818500000001
 30
0.0
 11
145.0
 21
-96.468184999999963
 31
0.0
  0
LINE
  5
42
  8
HIBINO-BASE
  6
CONTINUOUS
 62
     7
 10
195.0
 20
-96.468184999999963
 30
0.0
 11
195.0
 21
-116.46818500000001
 31
0.0
  0
LINE
  5
43
  8
HIBINO-BASE
  6
CONTINUOUS
 62
     7
 10
245.0
 20
-96.468184999999963
 30
0.0
 11
245.0
 21
-116.46818500000001
 31
0.0
  0
LINE
  5
44
  8
HIBINO-BASE
  6
CONTINUOUS
 62
     7
 10
220.0
 20
-116.46818500000001
 30
0.0
 11
220.0
 21
-96.468184999999963
 31
0.0
  0
TEXT
  5
45
  8
HIBINO-BASE
 62
     7
 10
146.71307999999999
 20
-110.7408916666666
 30
0.0
 40
3.2576822916666659
  1
'09.07.
 41
0.7
 11
146.71307999999999
 21
-107.483209375
 31
0.0
 73
     3
  0
TEXT
  5
46
  8
HIBINO-BASE
 62
     7
 10
135.0
 20
-112.43607166666661
 30
0.0
 40
3.2576822916666659
  1
2
 41
0.7
 11
135.0
 21
-109.17838937499999
 31
0.0
 73
     3
  0
TEXT
  5
47
  8
HIBINO-BASE
 62
     7
 10
198.0116200220692
 20
-110.7408916666666
 30
0.0
 40
3.2576822916666659
  1
N.Sasaki
 41
0.7
 11
198.0116200220692
 21
-107.483209375
 31
0.0
 73
     3
  0
TEXT
  5
48
  8
HIBINO-BASE
 62
     7
 10
107.76666666666659
 20
-112.51618499999999
 30
0.0
 40
6.5153645833333318
  1
A4
 41
0.7
 11
107.76666666666659
 21
-106.0008204166666
 31
0.0
 73
     3
  0
TEXT
  5
49
  8
HIBINO-BASE
 62
     7
 10
101.9166666666666
 20
-101.707095
 30
0.0
 40
3.2576822916666659
  1
PAPER SIZE
 41
0.7
 11
101.9166666666666
 21
-98.449412708333327
 31
0.0
 73
     3
  0
LINE
  5
4A
  8
SPEC
  6
CONTINUOUS
 62
     7
 10
-64.999999999999986
 20
383.53181499999999
 30
0.0
 11
230.0
 21
383.53181499999999
 31
0.0
  0
LINE
  5
4B
  8
SPEC
  6
CONTINUOUS
 62
     7
 10
-64.999999999999986
 20
376.03181499999999
 30
0.0
 11
230.0
 21
376.03181499999999
 31
0.0
  0
LINE
  5
4C
  8
SPEC
  6
CONTINUOUS
 62
     7
 10
-64.999999999999986
 20
353.53181499999988
 30
0.0
 11
230.0
 21
353.53181499999988
 31
0.0
  0
LINE
  5
4D
  8
SPEC
  6
CONTINUOUS
 62
     7
 10
-64.999999999999986
 20
361.03181499999999
 30
0.0
 11
230.0
 21
361.03181499999999
 31
0.0
  0
LINE
  5
4E
  8
SPEC
  6
CONTINUOUS
 62
     7
 10
-64.999999999999986
 20
368.53181499999999
 30
0.0
 11
230.0
 21
368.53181499999999
 31
0.0
  0
LINE
  5
4F
  8
SPEC
  6
CONTINUOUS
 62
     7
 10
-64.999999999999986
 20
383.53181499999999
 30
0.0
 11
-64.999999999999986
 21
331.03181499999999
 31
0.0
  0
TEXT
  5
50
  8
SPEC
 62
     7
 10
-62.5
 20
386.318355
 30
0.0
 40
4.8865234375000002
  1
仕様
 41
0.7
 11
-62.5
 21
391.20487843749999
 31
0.0
 73
     3
  0
LINE
  5
51
  8
SPEC
  6
CONTINUOUS
 62
     7
 10
0.0
 20
383.53181499999999
 30
0.0
 11
0.0
 21
331.03181499999999
 31
0.0
  0
LINE
  5
52
  8
SPEC
  6
CONTINUOUS
 62
     7
 10
230.0
 20
383.53181499999999
 30
0.0
 11
230.0
 21
331.03181499999999
 31
0.0
  0
TEXT
  5
53
  8
SPEC
 62
     7
 10
-63.063390270463238
 20
370.44917932384192
 30
0.0
 40
3.8006293402777769
  1
対応周波数帯域
 41
0.7
 11
-63.063390270463238
 21
374.24980866411971
 31
0.0
 73
     3
  0
TEXT
  5
54
  8
SPEC
 62
     7
 10
-63.473219459073533
 20
363.15409391814711
 30
0.0
 40
3.8006293402777769
  1
コネクター
 41
0.7
 11
-63.473219459073533
 21
366.95472325842479
 31
0.0
 73
     3
  0
TEXT
  5
55
  8
SPEC
 62
     7
 10
2.025540840629815
 20
362.83319584062963
 30
0.0
 40
3.8006293402777769
  1
RF出力：BNC(50\U+03A9)\U+00D71
 41
0.7
 11
2.025540840629815
 21
366.63382518090742
 31
0.0
 73
     3
  0
TEXT
  5
56
  8
SPEC
 62
     7
 10
-63.200000000000003
 20
355.44917932384192
 30
0.0
 40
3.8006293402777769
  1
ゲイン
 41
0.7
 11
-63.200000000000003
 21
359.24980866411971
 31
0.0
 73
     3
  0
TEXT
  5
57
  8
SPEC
 62
     7
 10
1.799999999999996
 20
355.37724013818371
 30
0.0
 40
3.8006293402777769
  1
1dB
 41
0.7
 11
1.7999999999999969
 21
359.17786947846139
 31
0.0
 73
     3
  0
LINE
  5
58
  8
SPEC
  6
CONTINUOUS
 62
     7
 10
-64.999999999999986
 20
331.03181499999999
 30
0.0
 11
230.0
 21
331.03181499999999
 31
0.0
  0
LINE
  5
59
  8
SPEC
  6
CONTINUOUS
 62
     7
 10
-64.999999999999986
 20
338.53181499999988
 30
0.0
 11
230.0
 21
338.53181499999988
 31
0.0
  0
TEXT
  5
5A
  8
SPEC
 62
     7
 10
-62.973033382342358
 20
333.09917192506009
 30
0.0
 40
3.8006224999999989
  1
付属品
 41
0.7
 11
-62.973033382342358
 21
336.89979442506012
 31
0.0
 73
     3
  0
TEXT
  5
5B
  8
SPEC
 62
     7
 10
-63.200000000000003
 20
348.25037580456262
 30
0.0
 40
3.8006224999999989
  1
寸法
 41
0.7
 11
-63.200000000000003
 21
352.05099830456248
 31
0.0
 73
     3
  0
TEXT
  5
5C
  8
SPEC
 62
     7
 10
-63.018426705873893
 20
340.58027851890779
 30
0.0
 40
3.8006224999999989
  1
重量
 41
0.7
 11
-63.018426705873893
 21
344.38090101890782
 31
0.0
 73
     3
  0
TEXT
  5
5D
  8
SPEC
 62
     7
 10
1.867184263366652
 20
333.09917192506009
 30
0.0
 40
3.8006224999999989
  1
ホルダー(SA 63)
 41
0.7
 11
1.867184263366652
 21
336.89979442506012
 31
0.0
 73
     3
  0
TEXT
  5
5E
  8
SPEC
 62
     7
 10
2.0691607618020522
 20
347.8834279490323
 30
0.0
 40
3.8006293402777769
  1
238(W)\U+00D738.5(H)mm(除突起部)
 41
0.7
 11
2.0691607618020522
 21
351.68405728931009
 31
0.0
 73
     3
  0
TEXT
  5
5F
  8
SPEC
 62
     7
 10
2.001552790099963
 20
340.53669663923762
 30
0.0
 40
3.8006224999999989
  1
本体:約68g,ホルダー:約38g
 41
0.7
 11
2.0015527900999639
 21
344.33731913923759
 31
0.0
 73
     3
  0
LINE
  5
60
  8
SPEC
  6
CONTINUOUS
 62
     7
 10
-64.999999999999986
 20
346.03181499999988
 30
0.0
 11
230.0
 21
346.03181499999988
 31
0.0
  0
TEXT
  5
61
  8
SPEC
 62
     7
 10
2.0710757316044082
 20
370.10765500000002
 30
0.0
 40
3.8006293402777769
  1
500～865MHz(B型 ・A型・A2型)
 41
0.7
 11
2.0710757316044091
 21
373.90828434027782
 31
0.0
 73
     3
  0
TEXT
  5
62
  8
SPEC
 62
     7
 10
-63.063390270463209
 20
377.8353378825613
 30
0.0
 40
3.8006293402777769
  1
形式
 41
0.7
 11
-63.063390270463209
 21
381.6359672228391
 31
0.0
 73
     3
  0
TEXT
  5
63
  8
SPEC
 62
     7
 10
1.909108377103464
 20
377.91804969138792
 30
0.0
 40
3.8006293402777769
  1
無指向性パッシブアンテナ
 41
0.7
 11
1.909108377103464
 21
381.71867903166572
 31
0.0
 73
     3
  0
TEXT
  5
64
  8
DIMNSIONS
 62
     7
 10
50.0
 20
-91.929204999999968
 30
0.0
 40
4.8865234375000002
  1
(単位：mm)
 41
0.7
 11
50.0
 21
-87.042681562499979
 31
0.0
 73
     3
  0
LINE
  5
65
  8
DIMNSIONS
  6
CONTINUOUS
 62
     7
 10
11.0
 20
150.75
 30
0.0
 11
-4.0
 21
150.75
 31
0.0
  0
LINE
  5
66
  8
DIMNSIONS
  6
CONTINUOUS
 62
     7
 10
51.200000000000003
 20
146.25
 30
0.0
 11
-4.0
 21
146.25
 31
0.0
  0
LINE
  5
67
  8
DIMNSIONS
  6
CONTINUOUS
 62
     7
 10
0.0
 20
146.25
 30
0.0
 11
0.0
 21
150.75
 31
0.0
  0
LINE
  5
68
  8
DIMNSIONS
  6
CONTINUOUS
 62
     7
 10
0.0
 20
150.75
 30
0.0
 11
0.0
 21
160.75
 31
0.0
  0
LINE
  5
69
  8
DIMNSIONS
  6
CONTINUOUS
 62
     7
 10
0.0
 20
150.75
 30
0.0
 11
-1.3400795903004901
 21
155.75124511718749
 31
0.0
  0
LINE
  5
6A
  8
DIMNSIONS
  6
CONTINUOUS
 62
     7
 10
0.0
 20
150.75
 30
0.0
 11
1.3400795903004901
 21
155.75124511718749
 31
0.0
  0
LINE
  5
6B
  8
DIMNSIONS
  6
CONTINUOUS
 62
     7
 10
0.0
 20
146.25
 30
0.0
 11
0.0
 21
129.4166666666666
 31
0.0
  0
LINE
  5
6C
  8
DIMNSIONS
  6
CONTINUOUS
 62
     7
 10
0.0
 20
146.25
 30
0.0
 11
1.3400795903004901
 21
141.24875488281251
 31
0.0
  0
LINE
  5
6D
  8
DIMNSIONS
  6
CONTINUOUS
 62
     7
 10
0.0
 20
146.25
 30
0.0
 11
-1.3400795903004901
 21
141.24875488281251
 31
0.0
  0
TEXT
  5
6E
  8
DIMNSIONS
 62
     7
 10
-1.987777777777781
 20
129.4166666666666
 30
0.0
 40
5.4294704861111107
  1
4.5
 50
90.0
 41
0.7
 11
-7.4172482638888919
 21
129.4166666666666
 31
0.0
 73
     3
  0
LINE
  5
6F
  8
DIMNSIONS
  6
CONTINUOUS
 62
     7
 10
15.0
 20
226.94999999999999
 30
0.0
 11
15.0
 21
206.0
 31
0.0
  0
LINE
  5
70
  8
DIMNSIONS
  6
CONTINUOUS
 62
     7
 10
105.0
 20
226.94999999999999
 30
0.0
 11
105.0
 21
206.0
 31
0.0
  0
LINE
  5
71
  8
DIMNSIONS
  6
CONTINUOUS
 62
     7
 10
15.0
 20
210.0
 30
0.0
 11
105.0
 21
210.0
 31
0.0
  0
LINE
  5
72
  8
DIMNSIONS
  6
CONTINUOUS
 62
     7
 10
15.0
 20
210.0
 30
0.0
 11
20.001245117187501
 21
211.34007959030049
 31
0.0
  0
LINE
  5
73
  8
DIMNSIONS
  6
CONTINUOUS
 62
     7
 10
15.0
 20
210.0
 30
0.0
 11
20.001245117187501
 21
208.65992040969951
 31
0.0
  0
LINE
  5
74
  8
DIMNSIONS
  6
CONTINUOUS
 62
     7
 10
105.0
 20
210.0
 30
0.0
 11
99.998754882812506
 21
208.65992040969951
 31
0.0
  0
LINE
  5
75
  8
DIMNSIONS
  6
CONTINUOUS
 62
     7
 10
105.0
 20
210.0
 30
0.0
 11
99.998754882812506
 21
211.34007959030049
 31
0.0
  0
TEXT
  5
76
  8
DIMNSIONS
 62
     7
 10
56.472222222222221
 20
211.98777777777781
 30
0.0
 40
5.4294704861111107
  1
90
 41
0.7
 11
56.472222222222221
 21
217.41724826388889
 31
0.0
 73
     3
  0
LINE
  5
77
  8
DIMNSIONS
  6
CONTINUOUS
 62
     7
 10
239.90404329198009
 20
153.4932611800331
 30
0.0
 11
245.0
 21
145.0
 31
0.0
  0
LINE
  5
78
  8
DIMNSIONS
  6
CONTINUOUS
 62
     7
 10
239.90404329198009
 20
153.4932611800331
 30
0.0
 11
243.62854735443349
 21
149.89654941519851
 31
0.0
  0
LINE
  5
79
  8
DIMNSIONS
  6
CONTINUOUS
 62
     7
 10
239.90404329198009
 20
153.4932611800331
 30
0.0
 11
241.33120254414581
 21
148.51616539036931
 31
0.0
  0
LINE
  5
7A
  8
DIMNSIONS
  6
CONTINUOUS
 62
     7
 10
245.0
 20
145.0
 30
0.0
 11
270.16666666666657
 21
145.0
 31
0.0
  0
TEXT
  5
7B
  8
DIMNSIONS
 62
     7
 10
249.0
 20
146.98777777777769
 30
0.0
 40
5.4294704861111107
  1
\U+03C638.5
 41
0.7
 11
249.0
 21
152.41724826388881
 31
0.0
 73
     3
  0
LINE
  5
7C
  8
DIMNSIONS
  6
CONTINUOUS
 62
     7
 10
23.249999999999989
 20
0.0
 30
0.0
 11
5.3999999999999924
 21
0.0
 31
0.0
  0
LINE
  5
7D
  8
DIMNSIONS
  6
CONTINUOUS
 62
     7
 10
42.162146566574613
 20
86.0
 30
0.0
 11
5.3999999999999924
 21
86.0
 31
0.0
  0
LINE
  5
7E
  8
DIMNSIONS
  6
CONTINUOUS
 62
     7
 10
9.3999999999999915
 20
0.0
 30
0.0
 11
9.3999999999999915
 21
86.0
 31
0.0
  0
LINE
  5
7F
  8
DIMNSIONS
  6
CONTINUOUS
 62
     7
 10
9.3999999999999915
 20
0.0
 30
0.0
 11
8.0599204096994992
 21
5.0012451171874943
 31
0.0
  0
LINE
  5
80
  8
DIMNSIONS
  6
CONTINUOUS
 62
     7
 10
9.3999999999999915
 20
0.0
 30
0.0
 11
10.74007959030048
 21
5.0012451171874943
 31
0.0
  0
LINE
  5
81
  8
DIMNSIONS
  6
CONTINUOUS
 62
     7
 10
9.3999999999999915
 20
86.0
 30
0.0
 11
10.74007959030048
 21
80.998754882812506
 31
0.0
  0
LINE
  5
82
  8
DIMNSIONS
  6
CONTINUOUS
 62
     7
 10
9.3999999999999915
 20
86.0
 30
0.0
 11
8.0599204096994992
 21
80.998754882812506
 31
0.0
  0
TEXT
  5
83
  8
DIMNSIONS
 62
     7
 10
7.4122222222222227
 20
39.472222222222229
 30
0.0
 40
5.4294704861111107
  1
86
 50
90.0
 41
0.7
 11
1.9827517361111111
 21
39.472222222222229
 31
0.0
 73
     3
  0
LINE
  5
84
  8
DIMNSIONS
  6
CONTINUOUS
 62
     7
 10
27.249999999999989
 20
-4.0
 30
0.0
 11
27.249999999999989
 21
-39.0
 31
0.0
  0
LINE
  5
85
  8
DIMNSIONS
  6
CONTINUOUS
 62
     7
 10
82.249999999999986
 20
44.5
 30
0.0
 11
82.249999999999986
 21
-39.0
 31
0.0
  0
LINE
  5
86
  8
DIMNSIONS
  6
CONTINUOUS
 62
     7
 10
27.249999999999989
 20
-35.0
 30
0.0
 11
82.249999999999986
 21
-35.0
 31
0.0
  0
LINE
  5
87
  8
DIMNSIONS
  6
CONTINUOUS
 62
     7
 10
27.249999999999989
 20
-35.0
 30
0.0
 11
32.25124511718748
 21
-33.659920409699509
 31
0.0
  0
LINE
  5
88
  8
DIMNSIONS
  6
CONTINUOUS
 62
     7
 10
27.249999999999989
 20
-35.0
 30
0.0
 11
32.25124511718748
 21
-36.340079590300491
 31
0.0
  0
LINE
  5
89
  8
DIMNSIONS
  6
CONTINUOUS
 62
     7
 10
82.249999999999986
 20
-35.0
 30
0.0
 11
77.248754882812506
 21
-36.340079590300491
 31
0.0
  0
LINE
  5
8A
  8
DIMNSIONS
  6
CONTINUOUS
 62
     7
 10
82.249999999999986
 20
-35.0
 30
0.0
 11
77.248754882812506
 21
-33.659920409699509
 31
0.0
  0
TEXT
  5
8B
  8
DIMNSIONS
 62
     7
 10
51.222222222222207
 20
-33.012222222222242
 30
0.0
 40
5.4294704861111107
  1
55
 41
0.7
 11
51.222222222222207
 21
-27.582751736111131
 31
0.0
 73
     3
  0
LINE
  5
8C
  8
DIMNSIONS
  6
CONTINUOUS
 62
     7
 10
39.399999999999999
 20
-4.0
 30
0.0
 11
39.399999999999999
 21
-11.5
 31
0.0
  0
LINE
  5
8D
  8
DIMNSIONS
  6
CONTINUOUS
 62
     7
 10
82.249999999999986
 20
44.5
 30
0.0
 11
82.249999999999986
 21
-11.5
 31
0.0
  0
LINE
  5
8E
  8
DIMNSIONS
  6
CONTINUOUS
 62
     7
 10
39.399999999999999
 20
-7.5
 30
0.0
 11
82.249999999999986
 21
-7.5
 31
0.0
  0
LINE
  5
8F
  8
DIMNSIONS
  6
CONTINUOUS
 62
     7
 10
39.399999999999999
 20
-7.5
 30
0.0
 11
44.4012451171875
 21
-6.1599204096995086
 31
0.0
  0
LINE
  5
90
  8
DIMNSIONS
  6
CONTINUOUS
 62
     7
 10
39.399999999999999
 20
-7.5
 30
0.0
 11
44.4012451171875
 21
-8.8400795903004887
 31
0.0
  0
LINE
  5
91
  8
DIMNSIONS
  6
CONTINUOUS
 62
     7
 10
82.249999999999986
 20
-7.5
 30
0.0
 11
77.248754882812506
 21
-8.8400795903004887
 31
0.0
  0
LINE
  5
92
  8
DIMNSIONS
  6
CONTINUOUS
 62
     7
 10
82.249999999999986
 20
-7.5
 30
0.0
 11
77.248754882812506
 21
-6.1599204096995086
 31
0.0
  0
TEXT
  5
93
  8
DIMNSIONS
 62
     7
 10
57.297222222222217
 20
-5.5122222222222463
 30
0.0
 40
5.4294704861111107
  1
43
 41
0.7
 11
57.297222222222217
 21
-0.0827517361111347
 31
0.0
 73
     3
  0
LINE
  5
94
  8
DIMNSIONS
  6
CONTINUOUS
 62
     7
 10
111.2497791378008
 20
65.12035033747415
 30
0.0
 11
111.2497791378008
 21
-39.0
 31
0.0
  0
LINE
  5
95
  8
DIMNSIONS
  6
CONTINUOUS
 62
     7
 10
148.7502208621992
 20
65.12035033747415
 30
0.0
 11
148.7502208621992
 21
-39.0
 31
0.0
  0
LINE
  5
96
  8
DIMNSIONS
  6
CONTINUOUS
 62
     7
 10
111.2497791378008
 20
-35.0
 30
0.0
 11
148.7502208621992
 21
-35.0
 31
0.0
  0
LINE
  5
97
  8
DIMNSIONS
  6
CONTINUOUS
 62
     7
 10
111.2497791378008
 20
-35.0
 30
0.0
 11
116.25102425498829
 21
-33.659920409699509
 31
0.0
  0
LINE
  5
98
  8
DIMNSIONS
  6
CONTINUOUS
 62
     7
 10
111.2497791378008
 20
-35.0
 30
0.0
 11
116.25102425498829
 21
-36.340079590300491
 31
0.0
  0
LINE
  5
99
  8
DIMNSIONS
  6
CONTINUOUS
 62
     7
 10
148.7502208621992
 20
-35.0
 30
0.0
 11
143.74897574501171
 21
-36.340079590300491
 31
0.0
  0
LINE
  5
9A
  8
DIMNSIONS
  6
CONTINUOUS
 62
     7
 10
148.7502208621992
 20
-35.0
 30
0.0
 11
143.74897574501171
 21
-33.659920409699509
 31
0.0
  0
TEXT
  5
9B
  8
DIMNSIONS
 62
     7
 10
122.9444444444444
 20
-33.012222222222242
 30
0.0
 40
5.4294704861111107
  1
37.5
 41
0.7
 11
122.9444444444444
 21
-27.582751736111131
 31
0.0
 73
     3
  0
LINE
  5
9C
  8
DIMNSIONS
  6
CONTINUOUS
 62
     7
 10
25.399999999999991
 20
28.5
 30
0.0
 11
25.399999999999991
 21
-24.0
 31
0.0
  0
LINE
  5
9D
  8
DIMNSIONS
  6
CONTINUOUS
 62
     7
 10
53.400000000000013
 20
28.5
 30
0.0
 11
53.400000000000013
 21
-24.0
 31
0.0
  0
LINE
  5
9E
  8
DIMNSIONS
  6
CONTINUOUS
 62
     7
 10
25.399999999999991
 20
-20.0
 30
0.0
 11
53.400000000000013
 21
-20.0
 31
0.0
  0
LINE
  5
9F
  8
DIMNSIONS
  6
CONTINUOUS
 62
     7
 10
25.399999999999991
 20
-20.0
 30
0.0
 11
30.401245117187489
 21
-18.659920409699499
 31
0.0
  0
LINE
  5
A0
  8
DIMNSIONS
  6
CONTINUOUS
 62
     7
 10
25.399999999999991
 20
-20.0
 30
0.0
 11
30.401245117187489
 21
-21.340079590300491
 31
0.0
  0
LINE
  5
A1
  8
DIMNSIONS
  6
CONTINUOUS
 62
     7
 10
53.400000000000013
 20
-20.0
 30
0.0
 11
48.398754882812497
 21
-21.340079590300491
 31
0.0
  0
LINE
  5
A2
  8
DIMNSIONS
  6
CONTINUOUS
 62
     7
 10
53.400000000000013
 20
-20.0
 30
0.0
 11
48.398754882812497
 21
-18.659920409699499
 31
0.0
  0
TEXT
  5
A3
  8
DIMNSIONS
 62
     7
 10
35.87222222222222
 20
-18.012222222222238
 30
0.0
 40
5.4294704861111107
  1
28
 41
0.7
 11
35.87222222222222
 21
-12.582751736111129
 31
0.0
 73
     3
  0
LINE
  5
A4
  8
DIMNSIONS
  6
CONTINUOUS
 62
     7
 10
109.0
 20
269.25
 30
0.0
 11
209.0
 21
269.25
 31
0.0
  0
LINE
  5
A5
  8
DIMNSIONS
  6
CONTINUOUS
 62
     7
 10
109.0
 20
230.75
 30
0.0
 11
209.0
 21
230.75
 31
0.0
  0
LINE
  5
A6
  8
DIMNSIONS
  6
CONTINUOUS
 62
     7
 10
205.0
 20
269.25
 30
0.0
 11
205.0
 21
230.75
 31
0.0
  0
LINE
  5
A7
  8
DIMNSIONS
  6
CONTINUOUS
 62
     7
 10
205.0
 20
269.25
 30
0.0
 11
206.34007959030049
 21
264.24875488281248
 31
0.0
  0
LINE
  5
A8
  8
DIMNSIONS
  6
CONTINUOUS
 62
     7
 10
205.0
 20
269.25
 30
0.0
 11
203.65992040969951
 21
264.24875488281248
 31
0.0
  0
LINE
  5
A9
  8
DIMNSIONS
  6
CONTINUOUS
 62
     7
 10
205.0
 20
230.75
 30
0.0
 11
203.65992040969951
 21
235.75124511718761
 31
0.0
  0
LINE
  5
AA
  8
DIMNSIONS
  6
CONTINUOUS
 62
     7
 10
205.0
 20
230.75
 30
0.0
 11
206.34007959030049
 21
235.75124511718761
 31
0.0
  0
TEXT
  5
AB
  8
DIMNSIONS
 62
     7
 10
203.01222222222219
 20
242.9444444444444
 30
0.0
 40
5.4294704861111107
  1
38.5
 50
90.0
 41
0.7
 11
197.58275173611111
 21
242.9444444444444
 31
0.0
 73
     3
  0
LINE
  5
AC
  8
DIMNSIONS
  6
CONTINUOUS
 62
     7
 10
-59.000000000000021
 20
242.90000000000001
 30
0.0
 11
-59.000000000000021
 21
196.0
 31
0.0
  0
LINE
  5
AD
  8
DIMNSIONS
  6
CONTINUOUS
 62
     7
 10
179.0
 20
242.90000000000001
 30
0.0
 11
179.0
 21
196.0
 31
0.0
  0
LINE
  5
AE
  8
DIMNSIONS
  6
CONTINUOUS
 62
     7
 10
-59.000000000000021
 20
200.0
 30
0.0
 11
179.0
 21
200.0
 31
0.0
  0
LINE
  5
AF
  8
DIMNSIONS
  6
CONTINUOUS
 62
     7
 10
-59.000000000000021
 20
200.0
 30
0.0
 11
-53.99875488281252
 21
201.34007959030049
 31
0.0
  0
LINE
  5
B0
  8
DIMNSIONS
  6
CONTINUOUS
 62
     7
 10
-59.000000000000021
 20
200.0
 30
0.0
 11
-53.99875488281252
 21
198.65992040969951
 31
0.0
  0
LINE
  5
B1
  8
DIMNSIONS
  6
CONTINUOUS
 62
     7
 10
179.0
 20
200.0
 30
0.0
 11
173.99875488281251
 21
198.65992040969951
 31
0.0
  0
LINE
  5
B2
  8
DIMNSIONS
  6
CONTINUOUS
 62
     7
 10
179.0
 20
200.0
 30
0.0
 11
173.99875488281251
 21
201.34007959030049
 31
0.0
  0
TEXT
  5
B3
  8
DIMNSIONS
 62
     7
 10
54.708333333333343
 20
201.98777777777781
 30
0.0
 40
5.4294704861111107
  1
238
 41
0.7
 11
54.708333333333343
 21
207.41724826388889
 31
0.0
 73
     3
  0
LINE
  5
B4
  8
DIMNSIONS
  6
CONTINUOUS
 62
     7
 10
182.19999999999999
 20
246.94999999999999
 30
0.0
 11
194.0
 21
246.94999999999999
 31
0.0
  0
LINE
  5
B5
  8
DIMNSIONS
  6
CONTINUOUS
 62
     7
 10
182.19999999999999
 20
253.04999999999961
 30
0.0
 11
194.0
 21
253.04999999999961
 31
0.0
  0
LINE
  5
B6
  8
DIMNSIONS
  6
CONTINUOUS
 62
     7
 10
190.0
 20
253.04999999999961
 30
0.0
 11
190.0
 21
246.94999999999999
 31
0.0
  0
LINE
  5
B7
  8
DIMNSIONS
  6
CONTINUOUS
 62
     7
 10
190.0
 20
246.94999999999999
 30
0.0
 11
190.0
 21
236.94999999999999
 31
0.0
  0
LINE
  5
B8
  8
DIMNSIONS
  6
CONTINUOUS
 62
     7
 10
190.0
 20
246.94999999999999
 30
0.0
 11
191.34007959030049
 21
241.94875488281249
 31
0.0
  0
LINE
  5
B9
  8
DIMNSIONS
  6
CONTINUOUS
 62
     7
 10
190.0
 20
246.94999999999999
 30
0.0
 11
188.65992040969951
 21
241.94875488281249
 31
0.0
  0
LINE
  5
BA
  8
DIMNSIONS
  6
CONTINUOUS
 62
     7
 10
190.0
 20
253.04999999999961
 30
0.0
 11
190.0
 21
265.58333333333331
 31
0.0
  0
LINE
  5
BB
  8
DIMNSIONS
  6
CONTINUOUS
 62
     7
 10
190.0
 20
253.04999999999961
 30
0.0
 11
188.65992040969951
 21
258.05124511718719
 31
0.0
  0
LINE
  5
BC
  8
DIMNSIONS
  6
CONTINUOUS
 62
     7
 10
190.0
 20
253.04999999999961
 30
0.0
 11
191.34007959030049
 21
258.05124511718719
 31
0.0
  0
TEXT
  5
BD
  8
DIMNSIONS
 62
     7
 10
188.01222222222219
 20
255.0
 30
0.0
 40
5.4294704861111107
  1
6.1
 50
90.0
 41
0.7
 11
182.58275173611111
 21
255.0
 31
0.0
 73
     3
  0
TEXT
  5
BE
  8
DATA
 62
     7
 10
-60.0
 20
-107.99218500000001
 30
0.0
 40
3.2576822916666659
  1
仕様および外観は予告なく変更されることがありますので、ご了承ください。
 41
0.7
 11
-60.0
 21
-104.7345027083333
 31
0.0
 73
     3
  0
TEXT
  5
BF
  8
DATA
 62
     7
 10
200.0
 20
-79.706404999999933
 30
0.0
 40
4.8865234375000002
  1
AKG
 41
0.7
 11
200.0
 21
-74.81988156249993
 31
0.0
 73
     3
  0
TEXT
  5
C0
  8
DATA
 62
     7
 10
195.0
 20
-86.660314999999997
 30
0.0
 40
3.2576822916666659
  1
無指向性パッシブアンテナ
 41
0.7
 11
195.0
 21
-83.402632708333343
 31
0.0
 73
     3
  0
TEXT
  5
C1
  8
DATA
 62
     7
 10
200.0
 20
-94.206404999999947
 30
0.0
 40
4.8865234375000002
  1
RA 4000 W
 41
0.7
 11
200.0
 21
-89.319881562499944
 31
0.0
 73
     3
  0
LINE
  5
C2
  8
DATA
  6
CONTINUOUS
 62
     7
 10
2.7999999999999958
 20
255.72
 30
0.0
 11
12.0
 21
255.72
 31
0.0
  0
LINE
  5
C3
  8
DATA
  6
CONTINUOUS
 62
     7
 10
2.7999999999999958
 20
244.28
 30
0.0
 11
12.0
 21
244.28
 31
0.0
  0
ARC
  5
C4
  8
DATA
  6
CONTINUOUS
 62
     7
 10
12.0
 20
258.72000000000003
 30
0.0
 40
3.0
 50
270.0
 51
0.0
  0
ARC
  5
C5
  8
DATA
  6
CONTINUOUS
 62
     7
 10
12.0
 20
241.28
 30
0.0
 40
3.0
 50
0.0
 51
90.0
  0
LINE
  5
C6
  8
DATA
  6
CONTINUOUS
 62
     7
 10
2.7999999999999958
 20
244.28
 30
0.0
 11
2.7999999999999958
 21
255.72
 31
0.0
  0
LINE
  5
C7
  8
DATA
  6
CONTINUOUS
 62
     7
 10
117.2
 20
255.72
 30
0.0
 11
108.0
 21
255.72
 31
0.0
  0
LINE
  5
C8
  8
DATA
  6
CONTINUOUS
 62
     7
 10
117.2
 20
244.28
 30
0.0
 11
108.0
 21
244.28
 31
0.0
  0
ARC
  5
C9
  8
DATA
  6
CONTINUOUS
 62
     7
 10
108.0
 20
258.72000000000003
 30
0.0
 40
3.0
 50
180.0
 51
270.0
  0
ARC
  5
CA
  8
DATA
  6
CONTINUOUS
 62
     7
 10
108.0
 20
241.28
 30
0.0
 40
3.0
 50
90.0
 51
180.0
  0
LINE
  5
CB
  8
DATA
  6
CONTINUOUS
 62
     7
 10
117.2
 20
244.28
 30
0.0
 11
117.2
 21
255.72
 31
0.0
  0
LINE
  5
CC
  8
DATA
  6
CONTINUOUS
 62
     7
 10
-59.000000000000021
 20
247.75
 30
0.0
 11
-59.000000000000021
 21
252.25
 31
0.0
  0
LINE
  5
CD
  8
DATA
  6
CONTINUOUS
 62
     7
 10
2.7999999999999958
 20
175.72
 30
0.0
 11
12.0
 21
175.72
 31
0.0
  0
LINE
  5
CE
  8
DATA
  6
CONTINUOUS
 62
     7
 10
2.7999999999999958
 20
164.28
 30
0.0
 11
12.0
 21
164.28
 31
0.0
  0
ARC
  5
CF
  8
DATA
  6
CONTINUOUS
 62
     7
 10
12.0
 20
178.72
 30
0.0
 40
3.0
 50
270.0
 51
0.0
  0
ARC
  5
D0
  8
DATA
  6
CONTINUOUS
 62
     7
 10
12.0
 20
161.28
 30
0.0
 40
3.0
 50
0.0
 51
90.0
  0
LINE
  5
D1
  8
DATA
  6
CONTINUOUS
 62
     7
 10
2.7999999999999958
 20
164.28
 30
0.0
 11
2.7999999999999958
 21
175.72
 31
0.0
  0
LINE
  5
D2
  8
DATA
  6
CONTINUOUS
 62
     7
 10
117.2
 20
175.72
 30
0.0
 11
108.0
 21
175.72
 31
0.0
  0
LINE
  5
D3
  8
DATA
  6
CONTINUOUS
 62
     7
 10
117.2
 20
164.28
 30
0.0
 11
108.0
 21
164.28
 31
0.0
  0
ARC
  5
D4
  8
DATA
  6
CONTINUOUS
 62
     7
 10
108.0
 20
178.72
 30
0.0
 40
3.0
 50
180.0
 51
270.0
  0
ARC
  5
D5
  8
DATA
  6
CONTINUOUS
 62
     7
 10
108.0
 20
161.28
 30
0.0
 40
3.0
 50
90.0
 51
180.0
  0
LINE
  5
D6
  8
DATA
  6
CONTINUOUS
 62
     7
 10
117.2
 20
164.28
 30
0.0
 11
117.2
 21
175.72
 31
0.0
  0
LINE
  5
D7
  8
DATA
  6
CONTINUOUS
 62
     7
 10
15.0
 20
150.75
 30
0.0
 11
15.0
 21
189.25
 31
0.0
  0
LINE
  5
D8
  8
DATA
  6
CONTINUOUS
 62
     7
 10
105.0
 20
150.75
 30
0.0
 11
98.250000000000014
 21
150.75
 31
0.0
  0
LINE
  5
D9
  8
DATA
  6
CONTINUOUS
 62
     7
 10
97.75
 20
150.75
 30
0.0
 11
68.25
 21
150.75
 31
0.0
  0
LINE
  5
DA
  8
DATA
  6
CONTINUOUS
 62
     7
 10
51.75
 20
150.75
 30
0.0
 11
22.25
 21
150.75
 31
0.0
  0
LINE
  5
DB
  8
DATA
  6
CONTINUOUS
 62
     7
 10
21.75
 20
150.75
 30
0.0
 11
15.0
 21
150.75
 31
0.0
  0
LINE
  5
DC
  8
DATA
  6
CONTINUOUS
 62
     7
 10
105.0
 20
189.25
 30
0.0
 11
105.0
 21
150.75
 31
0.0
  0
LINE
  5
DD
  8
DATA
  6
CONTINUOUS
 62
     7
 10
15.0
 20
189.25
 30
0.0
 11
21.75
 21
189.25
 31
0.0
  0
LINE
  5
DE
  8
DATA
  6
CONTINUOUS
 62
     7
 10
22.25
 20
189.25
 30
0.0
 11
97.75
 21
189.25
 31
0.0
  0
LINE
  5
DF
  8
DATA
  6
CONTINUOUS
 62
     7
 10
98.250000000000014
 20
189.25
 30
0.0
 11
105.0
 21
189.25
 31
0.0
  0
LINE
  5
E0
  8
DATA
  6
CONTINUOUS
 62
     7
 10
21.75
 20
150.75
 30
0.0
 11
21.75
 21
152.01253140723341
 31
0.0
  0
LINE
  5
E1
  8
DATA
  6
CONTINUOUS
 62
     7
 10
21.75
 20
157.9874685927665
 30
0.0
 11
21.75
 21
189.25
 31
0.0
  0
LINE
  5
E2
  8
DATA
  6
CONTINUOUS
 62
     7
 10
22.25
 20
150.75
 30
0.0
 11
22.25
 21
152.01253140723341
 31
0.0
  0
LINE
  5
E3
  8
DATA
  6
CONTINUOUS
 62
     7
 10
22.25
 20
157.9874685927665
 30
0.0
 11
22.25
 21
189.25
 31
0.0
  0
LINE
  5
E4
  8
DATA
  6
CONTINUOUS
 62
     7
 10
98.250000000000014
 20
150.75
 30
0.0
 11
98.250000000000014
 21
182.01253140723341
 31
0.0
  0
LINE
  5
E5
  8
DATA
  6
CONTINUOUS
 62
     7
 10
98.250000000000014
 20
187.9874685927665
 30
0.0
 11
98.250000000000014
 21
189.25
 31
0.0
  0
LINE
  5
E6
  8
DATA
  6
CONTINUOUS
 62
     7
 10
97.75
 20
189.25
 30
0.0
 11
97.75
 21
187.9874685927665
 31
0.0
  0
LINE
  5
E7
  8
DATA
  6
CONTINUOUS
 62
     7
 10
97.75
 20
182.01253140723341
 30
0.0
 11
97.75
 21
150.75
 31
0.0
  0
LINE
  5
E8
  8
DATA
  6
CONTINUOUS
 62
     7
 10
21.75
 20
188.94999999999999
 30
0.0
 11
22.25
 21
188.94999999999999
 31
0.0
  0
LINE
  5
E9
  8
DATA
  6
CONTINUOUS
 62
     7
 10
22.25
 20
151.05000000000001
 30
0.0
 11
21.75
 21
151.05000000000001
 31
0.0
  0
LINE
  5
EA
  8
DATA
  6
CONTINUOUS
 62
     7
 10
21.75
 20
188.94999999999999
 30
0.0
 11
22.25
 21
188.94999999999999
 31
0.0
  0
LINE
  5
EB
  8
DATA
  6
CONTINUOUS
 62
     7
 10
98.250000000000014
 20
188.94999999999999
 30
0.0
 11
97.75
 21
188.94999999999999
 31
0.0
  0
LINE
  5
EC
  8
DATA
  6
CONTINUOUS
 62
     7
 10
97.75
 20
151.05000000000001
 30
0.0
 11
98.250000000000014
 21
151.05000000000001
 31
0.0
  0
LINE
  5
ED
  8
DATA
  6
CONTINUOUS
 62
     7
 10
98.250000000000014
 20
188.94999999999999
 30
0.0
 11
97.75
 21
188.94999999999999
 31
0.0
  0
LINE
  5
EE
  8
DATA
  6
CONTINUOUS
 62
     7
 10
15.0
 20
230.75
 30
0.0
 11
15.0
 21
269.25
 31
0.0
  0
LINE
  5
EF
  8
DATA
  6
CONTINUOUS
 62
     7
 10
105.0
 20
230.75
 30
0.0
 11
98.250000000000014
 21
230.75
 31
0.0
  0
LINE
  5
F0
  8
DATA
  6
CONTINUOUS
 62
     7
 10
97.75
 20
230.75
 30
0.0
 11
22.25
 21
230.75
 31
0.0
  0
LINE
  5
F1
  8
DATA
  6
CONTINUOUS
 62
     7
 10
21.75
 20
230.75
 30
0.0
 11
15.0
 21
230.75
 31
0.0
  0
LINE
  5
F2
  8
DATA
  6
CONTINUOUS
 62
     7
 10
105.0
 20
269.25
 30
0.0
 11
105.0
 21
230.75
 31
0.0
  0
LINE
  5
F3
  8
DATA
  6
CONTINUOUS
 62
     7
 10
15.0
 20
269.25
 30
0.0
 11
21.75
 21
269.25
 31
0.0
  0
LINE
  5
F4
  8
DATA
  6
CONTINUOUS
 62
     7
 10
22.25
 20
269.25
 30
0.0
 11
97.75
 21
269.25
 31
0.0
  0
LINE
  5
F5
  8
DATA
  6
CONTINUOUS
 62
     7
 10
98.250000000000014
 20
269.25
 30
0.0
 11
105.0
 21
269.25
 31
0.0
  0
LINE
  5
F6
  8
DATA
  6
CONTINUOUS
 62
     7
 10
21.75
 20
230.75
 30
0.0
 11
21.75
 21
256.27920076367388
 31
0.0
  0
LINE
  5
F7
  8
DATA
  6
CONTINUOUS
 62
     7
 10
21.75
 20
264.78875025107982
 30
0.0
 11
21.75
 21
269.25
 31
0.0
  0
LINE
  5
F8
  8
DATA
  6
CONTINUOUS
 62
     7
 10
22.25
 20
230.75
 30
0.0
 11
22.25
 21
256.2800461335645
 31
0.0
  0
LINE
  5
F9
  8
DATA
  6
CONTINUOUS
 62
     7
 10
22.25
 20
264.78858241056668
 30
0.0
 11
22.25
 21
269.25
 31
0.0
  0
LINE
  5
FA
  8
DATA
  6
CONTINUOUS
 62
     7
 10
98.250000000000014
 20
230.75
 30
0.0
 11
98.250000000000014
 21
235.2112497489203
 31
0.0
  0
LINE
  5
FB
  8
DATA
  6
CONTINUOUS
 62
     7
 10
98.250000000000014
 20
243.7207992363262
 30
0.0
 11
98.250000000000014
 21
269.25
 31
0.0
  0
LINE
  5
FC
  8
DATA
  6
CONTINUOUS
 62
     7
 10
97.75
 20
269.25
 30
0.0
 11
97.75
 21
243.71995386643559
 31
0.0
  0
LINE
  5
FD
  8
DATA
  6
CONTINUOUS
 62
     7
 10
97.75
 20
235.2114175894333
 30
0.0
 11
97.75
 21
230.75
 31
0.0
  0
LINE
  5
FE
  8
DATA
  6
CONTINUOUS
 62
     7
 10
21.75
 20
268.9500000000001
 30
0.0
 11
22.25
 21
268.9500000000001
 31
0.0
  0
LINE
  5
FF
  8
DATA
  6
CONTINUOUS
 62
     7
 10
22.25
 20
231.05000000000001
 30
0.0
 11
21.75
 21
231.05000000000001
 31
0.0
  0
LINE
  5
100
  8
DATA
  6
CONTINUOUS
 62
     7
 10
21.75
 20
268.9500000000001
 30
0.0
 11
22.25
 21
268.9500000000001
 31
0.0
  0
LINE
  5
101
  8
DATA
  6
CONTINUOUS
 62
     7
 10
98.250000000000014
 20
268.9500000000001
 30
0.0
 11
97.75
 21
268.9500000000001
 31
0.0
  0
LINE
  5
102
  8
DATA
  6
CONTINUOUS
 62
     7
 10
97.75
 20
231.05000000000001
 30
0.0
 11
98.250000000000014
 21
231.05000000000001
 31
0.0
  0
LINE
  5
103
  8
DATA
  6
CONTINUOUS
 62
     7
 10
98.250000000000014
 20
268.9500000000001
 30
0.0
 11
97.75
 21
268.9500000000001
 31
0.0
  0
LINE
  5
104
  8
DATA
  6
CONTINUOUS
 62
     7
 10
64.799999999999997
 20
146.25
 30
0.0
 11
55.200000000000003
 21
146.25
 31
0.0
  0
LINE
  5
105
  8
DATA
  6
CONTINUOUS
 62
     7
 10
55.200000000000003
 20
146.25
 30
0.0
 11
55.200000000000003
 21
152.45355510617671
 31
0.0
  0
LINE
  5
106
  8
DATA
  6
CONTINUOUS
 62
     7
 10
64.799999999999997
 20
146.25
 30
0.0
 11
64.799999999999997
 21
152.45355510617671
 31
0.0
  0
ARC
  5
107
  8
DATA
  6
CONTINUOUS
 62
     7
 10
60.0
 20
138.38749999999999
 30
0.0
 40
14.86250000000001
 50
56.283202464523463
 51
123.7167975354765
  0
CIRCLE
  5
108
  8
DATA
  6
CONTINUOUS
 62
     7
 10
60.0
 20
150.75
 30
0.0
 40
1.0
  0
CIRCLE
  5
109
  8
DATA
  6
CONTINUOUS
 62
     7
 10
22.000000000000011
 20
155.0
 30
0.0
 40
2.0
  0
LINE
  5
10A
  8
DATA
  6
CONTINUOUS
 62
     7
 10
22.000000000000011
 20
153.5
 30
0.0
 11
22.000000000000011
 21
156.5
 31
0.0
  0
LINE
  5
10B
  8
DATA
  6
CONTINUOUS
 62
     7
 10
20.500000000000011
 20
155.0
 30
0.0
 11
23.500000000000011
 21
155.0
 31
0.0
  0
LINE
  5
10C
  8
DATA
  6
CONTINUOUS
 62
     7
 10
22.000000000000011
 20
153.5
 30
0.0
 11
22.000000000000011
 21
156.5
 31
0.0
  0
CIRCLE
  5
10D
  8
DATA
  6
CONTINUOUS
 62
     7
 10
98.0
 20
185.0
 30
0.0
 40
2.0
  0
LINE
  5
10E
  8
DATA
  6
CONTINUOUS
 62
     7
 10
99.500000000000014
 20
185.0
 30
0.0
 11
96.5
 21
185.0
 31
0.0
  0
LINE
  5
10F
  8
DATA
  6
CONTINUOUS
 62
     7
 10
98.0
 20
186.5
 30
0.0
 11
98.0
 21
183.5
 31
0.0
  0
LINE
  5
110
  8
DATA
  6
CONTINUOUS
 62
     7
 10
99.500000000000014
 20
185.0
 30
0.0
 11
96.5
 21
185.0
 31
0.0
  0
LINE
  5
111
  8
DATA
  6
CONTINUOUS
 62
     7
 10
98.0
 20
186.5
 30
0.0
 11
98.0
 21
183.5
 31
0.0
  0
CIRCLE
  5
112
  8
DATA
  6
CONTINUOUS
 62
     7
 10
22.000000000000011
 20
155.0
 30
0.0
 40
3.0
  0
CIRCLE
  5
113
  8
DATA
  6
CONTINUOUS
 62
     7
 10
98.0
 20
185.0
 30
0.0
 40
3.0
  0
ARC
  5
114
  8
DATA
  6
CONTINUOUS
 62
     7
 10
97.794169750538103
 20
238.16609472862319
 30
0.0
 40
3.2071134898387492
 50
317.18028436076492
 51
1.6208728807959001
  0
ARC
  5
115
  8
DATA
  6
CONTINUOUS
 62
     7
 10
98.104441134344086
 20
238.2756323516825
 30
0.0
 40
3.067837694449131
 50
268.08167437197432
 51
311.73289784274959
  0
ARC
  5
116
  8
DATA
  6
CONTINUOUS
 62
     7
 10
92.957742936089033
 20
237.964667449443
 30
0.0
 40
8.0475615086112935
 50
2.0804117539942091
 51
41.750105557747247
  0
ARC
  5
117
  8
DATA
  6
CONTINUOUS
 62
     7
 10
97.895912740182368
 20
242.25073643094069
 30
0.0
 40
1.5121053003488869
 50
45.184949020078307
 51
85.986558362844946
  0
ARC
  5
118
  8
DATA
  6
CONTINUOUS
 62
     7
 10
98.209321745418436
 20
238.16609472862319
 30
0.0
 40
3.2071134898387479
 50
178.3791271192041
 51
222.81971563923511
  0
ARC
  5
119
  8
DATA
  6
CONTINUOUS
 62
     7
 10
97.899050361612424
 20
238.2756323516825
 30
0.0
 40
3.0678376944491279
 50
228.26710215725041
 51
271.91832562802568
  0
ARC
  5
11A
  8
DATA
  6
CONTINUOUS
 62
     7
 10
103.04574855986741
 20
237.964667449443
 30
0.0
 40
8.0475615086112953
 50
138.2498944422527
 51
177.91958824600579
  0
ARC
  5
11B
  8
DATA
  6
CONTINUOUS
 62
     7
 10
98.107578755774156
 20
242.25073643094069
 30
0.0
 40
1.51210530034889
 50
94.013441637155054
 51
134.81505097992169
  0
ARC
  5
11C
  8
DATA
  6
CONTINUOUS
 62
     7
 10
22.20583024946189
 20
261.83390527137681
 30
0.0
 40
3.2071134898387679
 50
137.18028436076449
 51
181.62087288079579
  0
ARC
  5
11D
  8
DATA
  6
CONTINUOUS
 62
     7
 10
21.895558865655911
 20
261.72436764831752
 30
0.0
 40
3.0678376944491181
 50
88.081674371973946
 51
131.73289784274951
  0
ARC
  5
11E
  8
DATA
  6
CONTINUOUS
 62
     7
 10
27.042257063910949
 20
262.03533255055697
 30
0.0
 40
8.0475615086112953
 50
182.0804117539943
 51
221.7501055577473
  0
ARC
  5
11F
  8
DATA
  6
CONTINUOUS
 62
     7
 10
22.104087259817629
 20
257.74926356905939
 30
0.0
 40
1.5121053003488769
 50
225.1849490200787
 51
265.98655836284553
  0
ARC
  5
120
  8
DATA
  6
CONTINUOUS
 62
     7
 10
21.790678254581561
 20
261.83390527137681
 30
0.0
 40
3.207113489838763
 50
358.3791271192041
 51
42.819715639235298
  0
ARC
  5
121
  8
DATA
  6
CONTINUOUS
 62
     7
 10
22.100949638387561
 20
261.72436764831752
 30
0.0
 40
3.0678376944491279
 50
48.267102157250427
 51
91.918325628025556
  0
ARC
  5
122
  8
DATA
  6
CONTINUOUS
 62
     7
 10
16.954251440132509
 20
262.03533255055697
 30
0.0
 40
8.0475615086113077
 50
318.24989444225281
 51
357.91958824600567
  0
ARC
  5
123
  8
DATA
  6
CONTINUOUS
 62
     7
 10
21.892421244225829
 20
257.74926356905939
 30
0.0
 40
1.512105300348892
 50
274.01344163715612
 51
314.81505097992209
  0
LINE
  5
124
  8
DATA
  6
CONTINUOUS
 62
     7
 10
52.0
 20
153.75
 30
0.0
 11
68.0
 21
153.75
 31
0.0
  0
LINE
  5
125
  8
DATA
  6
CONTINUOUS
 62
     7
 10
53.5
 20
161.25
 30
0.0
 11
66.5
 21
161.25
 31
0.0
  0
LINE
  5
126
  8
DATA
  6
CONTINUOUS
 62
     7
 10
52.0
 20
153.75
 30
0.0
 11
53.5
 21
161.25
 31
0.0
  0
LINE
  5
127
  8
DATA
  6
CONTINUOUS
 62
     7
 10
68.0
 20
153.75
 30
0.0
 11
66.5
 21
161.25
 31
0.0
  0
CIRCLE
  5
128
  8
DATA
  6
CONTINUOUS
 62
     7
 10
230.0
 20
170.0
 30
0.0
 40
3.0500000000000109
  0
CIRCLE
  5
129
  8
DATA
  6
CONTINUOUS
 62
     7
 10
230.0
 20
170.0
 30
0.0
 40
5.719999999999998
  0
CIRCLE
  5
12A
  8
DATA
  6
CONTINUOUS
 62
     7
 10
230.0
 20
170.0
 30
0.0
 40
8.7200000000000006
  0
CIRCLE
  5
12B
  8
DATA
  6
CONTINUOUS
 62
     7
 10
230.0
 20
170.0
 30
0.0
 40
19.250000000000021
  0
LINE
  5
12C
  8
DATA
  6
CONTINUOUS
 62
     7
 10
27.249999999999989
 20
0.0
 30
0.0
 11
51.549999999999997
 21
0.0
 31
0.0
  0
LINE
  5
12D
  8
DATA
  6
CONTINUOUS
 62
     7
 10
51.549999999999997
 20
0.0
 30
0.0
 11
50.799999999999997
 21
22.0
 31
0.0
  0
LINE
  5
12E
  8
DATA
  6
CONTINUOUS
 62
     7
 10
27.25
 20
0.0
 30
0.0
 11
27.999999999999989
 21
22.0
 31
0.0
  0
CIRCLE
  5
12F
  8
DATA
  6
CONTINUOUS
 62
     7
 10
39.399999999999999
 20
32.5
 30
0.0
 40
14.0
  0
LINE
  5
130
  8
DATA
  6
CONTINUOUS
 62
     7
 10
27.999999999999989
 20
22.0
 30
0.0
 11
30.139870411273922
 21
22.0
 31
0.0
  0
LINE
  5
131
  8
DATA
  6
CONTINUOUS
 62
     7
 10
50.799999999999997
 20
22.0
 30
0.0
 11
49.023884092462652
 21
22.0
 31
0.0
  0
LINE
  5
132
  8
DATA
  6
CONTINUOUS
 62
     7
 10
27.25
 20
39.455393590588443
 30
0.0
 11
36.430232461134644
 21
78.299966922444369
 31
0.0
  0
LINE
  5
133
  8
DATA
  6
CONTINUOUS
 62
     7
 10
69.400000000000006
 20
48.5
 30
0.0
 11
82.249999999999986
 21
48.5
 31
0.0
  0
LINE
  5
134
  8
DATA
  6
CONTINUOUS
 62
     7
 10
82.249999999999986
 20
48.5
 30
0.0
 11
82.249999999999986
 21
76.0
 31
0.0
  0
LINE
  5
135
  8
DATA
  6
CONTINUOUS
 62
     7
 10
72.25
 20
86.0
 30
0.0
 11
46.16214656657462
 21
86.0
 31
0.0
  0
LINE
  5
136
  8
DATA
  6
CONTINUOUS
 62
     7
 10
74.25
 20
48.5
 30
0.0
 11
74.25
 21
68.0
 31
0.0
  0
LINE
  5
137
  8
DATA
  6
CONTINUOUS
 62
     7
 10
45.75
 20
53.5
 30
0.0
 11
74.25
 21
53.5
 31
0.0
  0
LINE
  5
138
  8
DATA
  6
CONTINUOUS
 62
     7
 10
45.75
 20
48.5
 30
0.0
 11
45.75
 21
68.0
 31
0.0
  0
ARC
  5
139
  8
DATA
  6
CONTINUOUS
 62
     7
 10
69.400000000000006
 20
32.5
 30
0.0
 40
16.0
 50
89.999999999999957
 51
180.0
  0
LINE
  5
13A
  8
DATA
  6
CONTINUOUS
 62
     7
 10
45.75
 20
48.5
 30
0.0
 11
29.387533823541151
 21
48.5
 31
0.0
  0
LINE
  5
13B
  8
DATA
  6
CONTINUOUS
 62
     7
 10
64.25
 20
78.0
 30
0.0
 11
55.75
 21
78.0
 31
0.0
  0
ARC
  5
13C
  8
DATA
  6
CONTINUOUS
 62
     7
 10
55.75
 20
68.0
 30
0.0
 40
10.0
 50
90.0
 51
180.0
  0
ARC
  5
13D
  8
DATA
  6
CONTINUOUS
 62
     7
 10
64.25
 20
68.0
 30
0.0
 40
10.0
 50
0.0
 51
90.0
  0
TEXT
  5
13E
  8
DATA
 62
     7
 10
47.879442536562813
 20
48.729999999999968
 30
0.0
 40
2.7147352430555549
  1
S A 6 3
 41
0.7
 11
47.879442536562813
 21
51.444735243055533
 31
0.0
 73
     3
  0
ARC
  5
13F
  8
DATA
  6
CONTINUOUS
 62
     7
 10
46.162146566574627
 20
76.0
 30
0.0
 40
10.0
 50
90.000000000000057
 51
166.70312299403849
  0
ARC
  5
140
  8
DATA
  6
CONTINUOUS
 62
     7
 10
72.25
 20
76.0
 30
0.0
 40
10.0
 50
0.0
 51
90.0
  0
LINE
  5
141
  8
DATA
  6
CONTINUOUS
 62
     7
 10
117.84999999999999
 20
0.0
 30
0.0
 11
142.15000000000001
 21
0.0
 31
0.0
  0
LINE
  5
142
  8
DATA
  6
CONTINUOUS
 62
     7
 10
142.15000000000001
 20
0.0
 30
0.0
 11
141.51931818181819
 21
18.5
 31
0.0
  0
LINE
  5
143
  8
DATA
  6
CONTINUOUS
 62
     7
 10
117.84999999999999
 20
0.0
 30
0.0
 11
118.48068181818179
 21
18.5
 31
0.0
  0
ARC
  5
144
  8
DATA
  6
CONTINUOUS
 62
     7
 10
130.0
 20
1.2936155180046851
 30
0.0
 40
20.706384481995311
 50
56.198510603656928
 51
123.801489396343
  0
LINE
  5
145
  8
DATA
  6
CONTINUOUS
 62
     7
 10
121.09999999999999
 20
46.5
 30
0.0
 11
126.59999999999999
 21
46.5
 31
0.0
  0
LINE
  5
146
  8
DATA
  6
CONTINUOUS
 62
     7
 10
133.40000000000001
 20
46.5
 30
0.0
 11
138.90000000000001
 21
46.5
 31
0.0
  0
LINE
  5
147
  8
DATA
  6
CONTINUOUS
 62
     7
 10
121.09999999999999
 20
46.5
 30
0.0
 11
121.09999999999999
 21
19.989720949784211
 31
0.0
  0
LINE
  5
148
  8
DATA
  6
CONTINUOUS
 62
     7
 10
138.90000000000001
 20
46.5
 30
0.0
 11
138.90000000000001
 21
19.989720949784211
 31
0.0
  0
LINE
  5
149
  8
DATA
  6
CONTINUOUS
 62
     7
 10
126.59999999999999
 20
48.960886771196527
 30
0.0
 11
126.59999999999999
 21
21.71895170412936
 31
0.0
  0
LINE
  5
14A
  8
DATA
  6
CONTINUOUS
 62
     7
 10
133.40000000000001
 20
48.960886771196527
 30
0.0
 11
133.40000000000001
 21
21.71895170412936
 31
0.0
  0
ARC
  5
14B
  8
DATA
  6
CONTINUOUS
 62
     7
 10
130.9375
 20
68.1875
 30
0.0
 40
19.709808789026841
 50
115.3461759419467
 51
267.2736890060936
  0
ARC
  5
14C
  8
DATA
  6
CONTINUOUS
 62
     7
 10
129.0625
 20
68.1875
 30
0.0
 40
19.709808789026841
 50
272.72631099390622
 51
64.653824058053317
  0
LINE
  5
14D
  8
DATA
  6
CONTINUOUS
 62
     7
 10
123.6141720290623
 20
83.214569927344229
 30
0.0
 11
122.5
 21
86.0
 31
0.0
  0
ARC
  5
14E
  8
DATA
  6
CONTINUOUS
 62
     7
 10
131.6004087781599
 20
69.12035033747415
 30
0.0
 40
16.19959886108645
 50
119.5372815790499
 51
264.33032327873752
  0
ARC
  5
14F
  8
DATA
  6
CONTINUOUS
 62
     7
 10
128.3995912218401
 20
69.12035033747415
 30
0.0
 40
16.199598861086471
 50
275.66967672126248
 51
60.46271842095009
  0
LINE
  5
150
  8
DATA
  6
CONTINUOUS
 62
     7
 10
136.3858279709377
 20
83.214569927344229
 30
0.0
 11
137.69712595996481
 21
85.905281944462118
 31
0.0
  0
TEXT
  5
151
  8
DATA
 62
     7
 10
63.066666666666691
 20
-53.047999999999973
 30
0.0
 40
6.5153645833333318
  1
ホルダー
 41
0.7
 11
63.066666666666691
 21
-46.532635416666643
 31
0.0
 73
     3
  0
LINE
  5
152
  8
DATA
  6
CONTINUOUS
 62
     7
 10
60.0
 20
-57.5
 30
0.0
 11
100.0
 21
-57.5
 31
0.0
  0
TEXT
  5
153
  8
DATA
 62
     7
 10
51.533333333333331
 20
126.952
 30
0.0
 40
6.5153645833333318
  1
本体
 41
0.7
 11
51.533333333333331
 21
133.46736458333331
 31
0.0
 73
     3
  0
LINE
  5
154
  8
DATA
  6
CONTINUOUS
 62
     7
 10
50.0
 20
122.5
 30
0.0
 11
70.0
 21
122.5
 31
0.0
  0
LINE
  5
155
  8
DATA
  6
CONTINUOUS
 62
     7
 10
234.80000000000001
 20
146.25
 30
0.0
 11
225.19999999999999
 21
146.25
 31
0.0
  0
LINE
  5
156
  8
DATA
  6
CONTINUOUS
 62
     7
 10
225.19999999999999
 20
146.25
 30
0.0
 11
225.19999999999999
 21
151.3580446304579
 31
0.0
  0
LINE
  5
157
  8
DATA
  6
CONTINUOUS
 62
     7
 10
234.80000000000001
 20
146.25
 30
0.0
 11
234.80000000000001
 21
151.3580446304579
 31
0.0
  0
LINE
  5
158
  8
DATA
  6
CONTINUOUS
 62
     7
 10
224.5
 20
151.5524391856267
 30
0.0
 11
224.5
 21
149.75
 31
0.0
  0
LINE
  5
159
  8
DATA
  6
CONTINUOUS
 62
     7
 10
235.5
 20
151.5524391856267
 30
0.0
 11
235.5
 21
149.75
 31
0.0
  0
LINE
  5
15A
  8
DATA
  6
CONTINUOUS
 62
     7
 10
224.5
 20
149.75
 30
0.0
 11
225.19999999999999
 21
149.75
 31
0.0
  0
LINE
  5
15B
  8
DATA
  6
CONTINUOUS
 62
     7
 10
235.5
 20
149.75
 30
0.0
 11
234.80000000000001
 21
149.75
 31
0.0
  0
LINE
  5
15C
  8
DATA
  6
CONTINUOUS
 62
     7
 10
178.19999999999999
 20
246.94999999999999
 30
0.0
 11
117.2
 21
246.94999999999999
 31
0.0
  0
LINE
  5
15D
  8
DATA
  6
CONTINUOUS
 62
     7
 10
2.7999999999999958
 20
246.94999999999999
 30
0.0
 11
-58.200000000000003
 21
246.94999999999999
 31
0.0
  0
LINE
  5
15E
  8
DATA
  6
CONTINUOUS
 62
     7
 10
-58.200000000000003
 20
253.05000000000001
 30
0.0
 11
2.7999999999999958
 21
253.05000000000001
 31
0.0
  0
LINE
  5
15F
  8
DATA
  6
CONTINUOUS
 62
     7
 10
117.2
 20
253.05000000000001
 30
0.0
 11
178.19999999999999
 21
253.05000000000001
 31
0.0
  0
LINE
  5
160
  8
DATA
  6
CONTINUOUS
 62
     7
 10
179.0
 20
247.75
 30
0.0
 11
179.0
 21
252.25
 31
0.0
  0
ARC
  5
161
  8
DATA
  6
CONTINUOUS
 62
     7
 10
-58.200000000000003
 20
252.25
 30
0.0
 40
0.799999999999983
 50
90.0
 51
180.00000000000099
  0
ARC
  5
162
  8
DATA
  6
CONTINUOUS
 62
     7
 10
-58.200000000000003
 20
247.75
 30
0.0
 40
0.8000000000000113
 50
180.0
 51
270.0
  0
ARC
  5
163
  8
DATA
  6
CONTINUOUS
 62
     7
 10
178.19999999999999
 20
252.25
 30
0.0
 40
0.8000000000000113
 50
0.0
 51
89.999999999998977
  0
ARC
  5
164
  8
DATA
  6
CONTINUOUS
 62
     7
 10
178.19999999999999
 20
247.75
 30
0.0
 40
0.799999999999983
 50
270.0
 51
0.0000000000010232
  0
LINE
  5
165
  8
DATA
  6
CONTINUOUS
 62
     7
 10
-59.000000000000021
 20
167.75
 30
0.0
 11
-59.000000000000021
 21
172.25
 31
0.0
  0
LINE
  5
166
  8
DATA
  6
CONTINUOUS
 62
     7
 10
178.19999999999999
 20
166.94999999999999
 30
0.0
 11
117.2
 21
166.94999999999999
 31
0.0
  0
LINE
  5
167
  8
DATA
  6
CONTINUOUS
 62
     7
 10
2.7999999999999958
 20
166.94999999999999
 30
0.0
 11
-58.200000000000003
 21
166.94999999999999
 31
0.0
  0
LINE
  5
168
  8
DATA
  6
CONTINUOUS
 62
     7
 10
-58.200000000000003
 20
173.05000000000001
 30
0.0
 11
2.7999999999999958
 21
173.05000000000001
 31
0.0
  0
LINE
  5
169
  8
DATA
  6
CONTINUOUS
 62
     7
 10
117.2
 20
173.05000000000001
 30
0.0
 11
178.19999999999999
 21
173.05000000000001
 31
0.0
  0
LINE
  5
16A
  8
DATA
  6
CONTINUOUS
 62
     7
 10
179.0
 20
167.75
 30
0.0
 11
179.0
 21
172.25
 31
0.0
  0
ARC
  5
16B
  8
DATA
  6
CONTINUOUS
 62
     7
 10
-58.200000000000003
 20
172.25
 30
0.0
 40
0.799999999999983
 50
90.0
 51
180.00000000000099
  0
ARC
  5
16C
  8
DATA
  6
CONTINUOUS
 62
     7
 10
-58.200000000000003
 20
167.75
 30
0.0
 40
0.8000000000000113
 50
180.0
 51
270.0
  0
ARC
  5
16D
  8
DATA
  6
CONTINUOUS
 62
     7
 10
178.19999999999999
 20
172.25
 30
0.0
 40
0.8000000000000113
 50
0.0
 51
89.999999999998977
  0
ARC
  5
16E
  8
DATA
  6
CONTINUOUS
 62
     7
 10
178.19999999999999
 20
167.75
 30
0.0
 40
0.799999999999983
 50
270.0
 51
0.0000000000010232
  0
ENDSEC
  0
EOF
